B.B.E | Dj Fred & Arnold T | Daft Punk | Moby | FatBoy Slim | Prodigy
Matmatah | Louise Attaque | Manu Chao | Marcel et son Orchestre || Gérald De Palmas | Calogero | Yann Tiersen | Dido
Page d'Accueil || Moteur de Recherche || Le Webmaster | Mes Liens

Tablatures


Visitez notre sélection de sponsors spécial musique !!!

Voici quelques partitions de chansons de L'album "la Ouache".
Certaines chansons disposent de plusieurs versions de transcription : A vous de choisir !

  1.  Anter-ouache / Ouache : Basse
  2.  Emma : Guitare
  3.  Emma : Basse
  4.  Lambé An Dro : Guitare (Version 1)
  5.  Lambé An Dro : Guitare (Version 2)
  6.  Lambé An Dro : Guitare (Version 3)
  7.  Lambé An Dro : Guitare (Version 4)
  8.  Lambé An Dro : Basse
  9.  Dernière journée en mer : Guitare
10.  L'apologie : Guitare (Version 1)
11.  L'apologie : Guitare (Version 2)
12.  An Den Coz : Basse
13.  Derrière ton dos : Guitare
14.  Les moutons : Basse
15.  Ribette's : Guitare
(Transcrit par Steferwann Le Korrigan)
(Tirée du livret de l'album)
(Transcrit par Steferwann Le Korrigan)
(Tirée du livret de l'album)
(Transcrit par Frédéric Prost)
(Transcrit par Arnaud ar bras)
(
Transcrit par Yannerkenn Le Korrigan)
(
Transcrit par Steferwann Le Korrigan)
(Tirée du livret de l'album)
(Tirée du livret de l'album)
(Transcrit par Arnaud ar bras)
(Transcrit par Steferwann Le Korrigan)
(Tirée du livret de l'album)
(Transcrit par Steferwann Le Korrigan)
(Transcrit par Arnaud ar bras)

 

 

 

 

 

 

 

 

 

Anter-ouache / Ouache : Basse

Accordage normal

----------------------------------------------------------------------|
----------------------------------------------------------------------|
----------------------------------------------------------------------|
12---12-12---12---12-12---12---12-12---12---12-12\5-55-5-55-5-55-5-55/|

----------------------------------------------------------------------|
----------------------------------------------------------------------|
----------------------------------------------------------------------|
12---12-12---12---12-12---12---12-12---12---12-12\5-55-5-55-5-55-5-550|

--------------|--------------|
--------------|--------------|
--------------|--------------|
00-12-00-10-0-|00-12-00-10-0-| et ainsi de suite...

Pont "Please call my energy ouache"
---------|------|...
---------|------|...
---7/\9/\|7/\9/\|...
---------|------|...

--------------|--------------|
--------------|--------------|
--------------|--------------|
00-12-00-10-0-|00-12-00-10-0-| et ainsi de suite...

 

Emma : Guitare

Em       D            G              Cmaj7
Et ma télé est allumée, Emma t'es là
Em          D               G            Cmaj7
Et dire que ma journée est à peine entamée
Em        D           G             Cmaj7
Emma tu m'as déjà scotché au canapé
Em         D                  C                Em   G  D  Em  D  Am  Am
Emma t'es vraiment 10 fois plus belle que Tara

Emma comment fais-tu pour être aussi sûre de toi
Tes coups de pied m'ont quelque peu émasculé
Emma je t'en prie rend moi ma virilité
Emma t'es vraiment 100 fois plus belle que Tara

Emma t'es belle et ma copine elle t'aime pas
Emma t'es bonne et ma pile va bientôt claquer
Emma t'es froide comme le carelage de mes W-C
Emma t'es vraiment 1000 fois plus belle que Tara

Em   D    C#m  C   D
Emma Emma Emma Emma

Emma y-a y-a Emma y-a-é
Emma y-a y-a Emma y-a-a

Et ma télé va exploser Emma tais-toi
Et dire que pour toi j'aurais gâché ma santé
Emma t'as même pas réussi à me soulager
Emma t'es vraiment périmée rhabilles-toi

Emma y-a y-a Emma y-a-é
Emma y-a y-a Emma y-a-a       

 

Emma : Basse

Accordage normal

-----------------------|--------------------|
-----------------------|--------------------|
---7777-5555------3335/|7777-5555------3335/|
-------------3333------|----------3333------|

-----------------------|-------------------------------|
-----------------------|-------------------------------|
---7777-5555------3335/|7777-5555/10.10.10.10/15.15.15\|
-------------3333------|-------------------------------|

-----------------------|--------------------|
-----------------------|--------------------|
---7777-5555------3335/|7777-5555-3333------|
-------------3333------|--------------------|

Pont
--------------------------------------|
--------------------------------------|
---7777------5555/7777-5555------2222/|
--------3333----------------5555------|

-----------------------------------|
-----------------------------------|
7777------5555/7777-5555------2222/|
-----3333----------------5555------|
Fin du pont

-----------------------|------------------------|
-----------------------|----------5555/10.10.10\|
---7777-5555------3335/|7777-5555---------------|
-------------3333------|------------------------|

-----------------------|--------------------|
-----------------------|--------------------|
---7777-5555------3335/|7777-5555-3333------|
-------------3333------|--------------------|

Pont
--------------------------------------|
--------------------------------------|
---7777------5555/7777-5555------2222/|
--------3333----------------5555------|
Fin 2eme pont

-----------------------|-------------------------------|
-----------------------|-------------------------------|
---7777-5555------3335/|7777-5555/10.10.10.10/15.15.15\|
-------------3333------|-------------------------------|

-----------------------|--------------------|
-----------------------|--------------------|
---7777-5555------3335/|7777-5555-3333------|
-------------3333------|-----------------0--|

break Chant a cappella

puis reprise : toujours pareil jusqu'au 2eme break:

-----------------------|-----------------------|
-----------------------|-----------------------|
---7777-5555------3335/|7777-5555------3335/7--|
-------------3333------|----------3333---------|

2eme break
reprise:

------------------------|-----------------------|
------------------------|-----------------------|
--5/9999-7777------5557/|9999-7777------5555----|
--------------5555------|----------5555---------|

------------------------|-----------------------|
------------------------|-----------------------|
--5/9999-7777------5557/|9999-7777------5--4----|
--------------5555------|----------5555-------2-|

Lambé An Dro : Guitare (Version 1)

Mélaouache Fanch !

                Em              G
Si tu cherches un peu de gaieté
                 D              Em
Viens donc faire un tour à Lambé

Si aux exams tu t'es planté
Viens donc faire un tour à Lambé

Si t'as quelque chose à fêter
Viens donc faire un tour à Lambé

Y'a du chouchen à volonté
Viens donc faire un tour à Lambé

Si t'as rien trouvé pour squatter
Viens donc faire un tour à Lambé

Si ton mec vient de te plaquer
Viens donc faire un tour à Lambé

Si du Bouguen tu veux de jeter
Viens donc faire un tour à Lambé

Si pour le Mélo y'a plus d'entrées
Viens donc faire un tour à Lambé

F#m         F#m            A
Si t'en as marre de galérer
                  E             F#m
Viens donc faire un tour à Lambé

Si dans le bus tu t'es fait choper
Viens donc faire un tour à Lambé

Si dans le bus tu t'es fait pécho
Deus da Lambé d'ober un dro

Si t'as de la beuh à partager
Viens donc faire un tour à Lambé

Et si t'aimes bien la marche à pied
Viens donc faire un tour à Lambé

 

Lambé An Dro : Guitare (Version 2)

e ------------------------------------------------------------------
----------------------15-------15----12-----15----12----------------
----------------12--------------------------------------------------
---12---14----------------------------------------------------------
A ------------------------------------------------------------------
E ------------------------------------------------------------------


e -------------------------------------------------------------------
-----------------12--------------------------12----------------------
----12----14-------14-------12--14-----------------------------------
------------------------------------------------------14-------------
A -------------------------------------------------------------------

 

Lambé An Dro : Guitare (Version 3)

e---------------------------------------------------------------------------------------------
B---------------------------------------------------------------------------------------------
G------------------------------------------------------------7---7----------------------------
D-------2---2----X---X---X---5---5---5-----X---X-----7---7---X---X---X---2---2----------------
A-------2---2-----X---X---X---5---5---5-----X---X----5---5---X---X---X---2---2----------------
E-------0---0-----X---X---X---3---3---3-----X---X-------------X---X---X---0---0---------------

Voila pour la guitare de fond, saturé

e---------------------10-----10---7---10---7--------------7--------------------7--------------
B-------5---7---8-----------------------------------8---10--------10---8--10--------5---------
G---------------------------------------------------------------------------------------------

Voici la mélodie

e----------------------12---12---9---12---9----------------9-----------------------9----------
B------7---9---10--------------------------------10---12--------12---10---12--------7---------
----------------------------------------------------------------------------------------------

En boucle.
Puis,

e------------------------17---14---17---14-------------------------------------------------------------------------------------------------
B--------7---9---10-----------------------------17---14-----14---17---14-----------------------------14------------------------------------
G------------------------------------------------------------------------------------16---14---16---16----------16---14--------------------
D----------------------------------------------------------------------------------------------------------------------------------14---16-

Et en boucle, saturé en fond:

D-------4--/--7--\--2--/--4-------------------------------------------------------------------
A-------4--/--7--\--2--/--4-------------------------------------------------------------------
E------2--/--5--\--0--/--2--------------------------------------------------------------------

 

Lambé An Dro : Guitare (Version 4)

Accordage normal

Riff A

--------10-10-7-10-7---7------7-------------7-------|
------8------------------8-10---10-10--8-10---------|
--7-9------------------------------------------9----|
----------------------------------------------------|
----------------------------------------------------|
----------------------------------------------------|

RIff B
----------12-12-9-12-9-9-------9--------------9-----|
-------10----------------10-12---12-12--10-12-------|
--9-11------------------------------------------11--|
----------------------------------------------------|
----------------------------------------------------|
----------------------------------------------------|

Riff C
----------17-14-17-14-------|-----------------------|
-------10-------------17-14-|-14-17-14--------------|
--9-11----------------------|----------16-14-16-----|
----------------------------|-----------------------|
----------------------------|-----------------------|
----------------------------|-----------------------|

-------------------------|
-------------------------|
--14-16-14---------------|
-----------16-14-16------|
-------------------------|
-------------------------|

Mélodie :

4 x A
Chant
4 x A
Chant
4 x B
2 x C
2 x B
Chant
Puis C/B/C/B/C/B/C/B/C/B/C/B

Rythmique 1 :
Em/G/AM/Em

Rythmique 2 :
F#m/A/B/F#m

 

Lambé An Dro : Basse

Accordage normal

INTRO ("melaouache fanch")
---------------------------------
---------------------------------
------7--------7/-15-\-----------
---------------------------------

1er REFRAIN
----------------------------|-------------------------
----------------------------|-------------------------
--7-77---------5-55-577-77-0| 7-77-------5-55-577-77--
-------2/3-33-3-------------|----2/3-33-3-------------

1er Couplet
-------------|--------------------
-------------|--------------------
--5-555-5H7--|--5-555-5H7---------
-------------|--------------------

1er REFRAIN

2eme couplet
------------|------------|---...
------------|------------|---...
--5-55H7-7--|--5-55H7-7--|---...
------------|------------|---...

--------------
--------------
--5-55H7\-----
--------------

2eme refrain
------------------------------|
------------------------------|
--------------7-777-----------|
--2-22/4/5-55-5------0-22-22--|

------------------------------|
------------------------------|
--------------7-777-----------|
0-2-22/4/5-55-5------0-22-22--|

------------------------------|
------------------------------|
--------------7-777-----------|
0-2---/4/5-----------0-22-22--|

------------------------------|
------------------------------|
--------------7-777-----------|
0-2-22/4/5-55-5------0-22-22--| X3

------------------------------|
------------------------------|
------------------------------|
0-2---------------------2/14\-|

------------------------------|
------------------------------|
--------------7-777-----------|
--2-22/4/5-55-5------0-22-22-0|........

 

Dernière Journée En Mer : Guitare

E       E/D     E/C#    E/C (fois 2)
Em                       G
A cette heure Mars s'efface doucettement
D                           Em
Mal reveillé j'ai foutu le pied dans le cendrier
J'y avais cramé ce foutu papier
Qu'on m'avait envoyé en recommandé
       C                         Em
Et là-bas je vais prendre mon bateau
              C                   Em
Une dernière fois le mettre à l'eau
D         C                     E    E/D   E/C#   E/C
Partir pêcher pour ne pas oublier
Sur la mer à peine agacée que de souvenirs dans mes casiers
C'est comme une trève avant qu'on m'enlève
Je suis plus là par dérision mais à l'heure de départ
Je prends du retard et je vomis sur le pont

Et là-bas sur mon bateau
Pour la dernière fois ensemble sur l'eau
Partir pêcher pour cette fois oublier

Am      D                G             Bm           Em
Et demain sur ce quai bizarre d'où l'on voit le fond
Am         D                 G                Bm           Em
Avec pour seul bagage mon cafard et dans le bide un hameçon
                Em                G
Je m'en vais là-bas par pure dérision
                 D               Em
Pour servir les jeux de la déraison

Et derrière moi j'laisse mon bateau
Pour la dernière fois seul au bord de l'eau
Oui mais voilà tout s'arrête parfois
Et ce matin je prends le premier train

 

L'apologie : Guitare (Version 1)

Fm      Ab          Eb        Bbm             Fm
Cette étrange cigarette ne nous rend pas hagard
Fm      Ab      Eb          Bbm      Fm
L'an 2000 approchant rattraper le retard
Fm Ab           Eb        Bbm     Fm
Vivons à notre époque et dédramatisons
Fm        Ab         Eb     Bbm            Fm
Non bien sûr le pétard n'élève pas la raison

Je le conseille tout de même avec modération
Comme cet alcool qu'on prend jusqu'à la déraison
Et pour quelques noyés est devenu passion
Mais l'église ne dit rien la cirrhose a raison

Voir un homme tituber ne choque pas la morale
Mais l'alcool tant loué vous est parfois fatal
Et le joint si léger dans mon pays natal
Des libertés de l'homme devrait être banal

Malheureusement chez nous il se vend en sous-main
Si peu dangereux qu'il soit l'Etat lui fait la guerre
Pour une fausse morale parce qu'il n'en touche rien
Voilà la vérité dans cette triste affaire

Refrain:
Fm                 Db            Eb              Fm
Un pétard ou un Ricard, si t'as vraiment le cafard
Fm                 Db                 Eb          Fm
A choisir y'a pas photo, moi je choisis le maroco
Fm                       Db           Eb             Fm
Les alcool ont leurs soulards, le cana c'est le panard
Fm                  Db                    Eb        Fm
Y'en a qui le mystifient, moi j'en fais son apologie

Ce serait pourtant si simple de le légaliser
Deux petits joints par jour c'est anti-dépresseur
Si l'Etat dans ce cas n'était pas l'agresseur
Le peuple tout entier pourrait mieux respirer

C'est encore cette fois par l'argent que le bat blesse
Si au moins le haschisch pouvait emplir les caisses
Nos dirigeants affables fermeraient bien les yeux
Et parfois avec nous s'envoleraient aux cieux

Refrain

L'alcool et le tabac ont le droit de tuer
Car aux comptes de l'Etat apportent leurs deniers
Messieurs dames mourrez donc d'alcool et de fumée
La patente est payée, la mort autorisée

 

L'apologie : Guitare (Version 2)

e-----13---13-----11---11-----11---11-----13---13----------------
B-----13---13-----11---11-----11---11-----13---13----------------
G----------------------------------------------------------------

à certains moments

e----------------------------------------------------------------
B----13---13---13---13-----13---11-------------------------------
G----13---13---13---13-----12---10-------------------------------

Thème principal pendant les couplets, je n'en suis pas sur du tout, il semblerait qu'ils ne jouent pas toujours la même chose!

Refrain:

e---------------------------------------------------
B---------------------------------------------------
G---------------------------------------------------
D---6---8---10--------------------------------------
A---4---6----8--------------------------------------
E---4---6----8--------------------------------------

e---------------------------------------------------
B---------------------------------------------------
G-----5--/--13------5--/--6--\--5------------------
-

Saturé, 4ème couplet

e--------------------------------------------------
-
B---------------------------------------------------
G---5--/--13-----12--/--13--\--12-------------------

6ème couplet

 

An Den Coz : Basse

Accordage normal

-------------------------------------------------|
-------------------------------------------------|
-------------------------------------------------|
-12\-5-5-5/8-8-8\3-3-3/5--05-5-------------------|

-------------------------------------------------|
-------------------------------------------------|
-------------------------------------------------|
-0-5-5-5/8-8-8\3-3-3/5--05-5---------------------|

-------------------------------------------------|
-------------------------------------------------|
---------------5-5-5/8-08-8\---------------------|
-0-5-5-5/8-8-8-----------------------------------|

-------------------------------------------------|
-------------------------------------------------|
-------------------------------------------------|
-0-5-5-5/8-8-8\3-3-3/5--05-5---------------------|

-------------------------------------------------|
-------------------------------------------------|
-------------------------------------------------|
-0-5-5-5/8-8-8\3-3-3/5--05-5---------------------|

... et ainsi de suite ...

Solo de basse :
-------------------------------7-5-7-5-------------------------|
----------------7--5-7-----------------7---7-5-----------------|
-----------------------------------------------7-5-0-5-7-------|
--0-3--5----------------5------------------------------------5-|

----------------7-5-------------------------------|
----5---5---5-7-----7-5---------------------------|
--7---7---7-------------7-5-----------------------|
----------------------------7--5---5-5-5-5-5-5-5-5|

-------------------------------------------------|
-------------------------------------------------|
-------------------------------------------------|
-0-5-5-5/8-8-8\3-3-3/5--05-5---------------------|

... et ainsi de suite ...

 

Derrière ton dos : Guitare

Bm       A               D             F#
On m'a jeté d'la camionnette
Bm       A             D               F#
Sur le parvis devant chez nous
Bm        A                 D
Et m'abandonnant aux pâquerettes
                F#              Bm
Je m'souviens plus de rien du tout

Ni de l'état de ma braguette
Et d'ce qu'elle ne cache plus du tout
Ni de sa soirée porte ouverte
Pour impatiente sans rendez-vous

Refrain
D
Si j'te retrouve à l'aveuglette
                                A
C'est que je t'aime quand-même beaucoup
Bm         A               D
Peut-être moins que cette piquette
            F#                          Bm
Qui m'raccompagne bras dessus, bras dessous

D'avoir trop aimé faire la fête
J'ai remis les compteurs à zéro
Et puis, il n'y a pas qu'en levrette
Que j'fais des choses dans ton dos

J'm'appelle pas non plus Don Diego
De Las Vegas jusqu'à Spezet
J'ai eu beau faire tous les tripots
Il y a ce moment où je regrette

Refrain

Et je regrette, Dieu je regrette
D'avoir été si nul partout
Et puis d'avoir foutu en miettes
Mes 6 derniers points, et puis nous

Si j'te retrouve à l'aveuglette
C'est que je t'aime quand-même beaucoup
Peut-être moins moins que cette piquette
Mais certainement plus que tout.

 

Les Moutons : Basse

Accordage normal

Depart au deuxieme couplet:
"Y'a 3 francs de reduction..."

COUPLET:
---------------------|
---------------------|
---------------------|
0-3-3-333-0-111-1-3-3|

---------------------|
---------------------|
---------------------|
0-3-3-333-0-111-1-3-3|

---------------------|
---------------------|
---------------------|
0-1-1-111-1-1-3-3----|

---------------------|
---------------------|
---------------------|
0-1-1-111-1-1-3-3----|

Tout ce qui precede X3

REFRAIN:
--------------------------------------------------------------------------|
--------------------------------------------------------------------------|
--------------------------------------------------------------------------|
6-6-6-6-6-6-6-6/10-10-10-10-10-10-10-10\3-3-3-3-1111-3-3-03-3-3-3-1111-3-3|

Puis Couplet et ainsi de suite...

 

Ribette's : Guitare

e------------------------------------------------------------------------
B------------------------------------------------------------------------
G------------------------------------------------------------------------
D------2------5----10----7-----------------------------------------------
A------2------5----10----7----------------------------------------------
-
E------0-----3-----8-----5-----------------------------------------------

Saturé, pendant tout le morceau

Intro:
e-----------7------7---------------------7---5-----------------5--------
-
B---------------5------5--------------------------8---7---8--------------
G------------------------------------------------------------------------
'''''''''''''en boucle très vite

e----7---10-----8---7---8-----7---5---7-----7---5---7-----5--------5----------------------------------------------------
B-----------------------------------------------------------------------8--------8---7---8-----7---5---7-----5---4---5--
G-----------------------------------------------------------------------------------------------------------------------

Puis,

e---------3---2---0---3---5---5---3---0---2---3---0---0--------------------
B--------------------------------------------------------------------------
''''''''''''''''''''''''Bis

e------3---2---0---3---5---5---3---0---2---3-----3---2---3---------
B------------------------------------------------------------------

Puis une fois le thème précedant.

e---7-----7---7-----5-----5---5-----3---0---2---3---0---0----------
B------------------------------------------------------------------

En boucle.

Ensuite, c'est toujours la même chose!

 



Retour

© Tecknorganik 2007